Forum Créole !


Re: OUSANOUSAVA a Lyon
De : DaRk
Email : DaRklEvIl@hotmail.com
Pays : réunion
Date : 8 Sep 2004


intro de "oté gran mer"-Ousa nousava


do Am Dm
e--------0-----|--------0-----|--------1-------|-3-----1-----|
b---1------1---|---1------1---|---3-------3----|---3-----3---|
g------0-----0-|------2-----2-|------2-------2-|-----1-----2-|
d--------------|--------------|-0--------------|-------------|
a-3------------|-0------------|----------------|-------------|
e--------------|--------------|----------------|-------------|


sol Am Dm
e--------3-----|--------1-----|--------0-----|-------0-------|
b---0------0---|---0------0---|---1------1---|---1------1----|
g------0-----0-|------0-----0-|------2-----2-|------2------2-|
d--------------|--------------|-0------------|---------------|
a--------------|--------------|--------------|-0-------------|
e-3------------|-3------------|--------------|---------------|


ala pou ou (ma la trouve ali sur http://www.abc-tabs.com/


www.creole.org